VOODOO LADY - words and music by Ween
from the album "Chocolate and Cheese"

Pro'lly their most famous song for non-Ween fans, I've never seen this song
posted anywhere. The main part is played throughout the verses. The solo
was figured out by The Glidge

Guitar Intro by glenyce or Joe

Am6 Am7
E|-----------
B|-10---10---
G|-11---12---
D|-10---10---
A|-----------
E|-----------

**a note by Mike

It may be worth it to note for the beginners (like me) that
for Voodoo Lady, Dean played the G chord like this:

e|===3==
B|===0==
G|===0==
D|===0==
A|======
E|======

Voodoo Lady - by Ween

123+123+123+123+
| |
Main | Am C AmCGDC |
| |

Bass Intro

E |==================================================
B |==================================================
G |==================================================
D |==================================================
A |==================================================
E |=3=5=5=5==0=3=5=5=5==0=3=5=5=5==0=3=5=5=5==0=3=5==

These 2 chords are used as an intro and it is sometimes after the
bridge, get a newer live recording and you'll hear it.

Guitar intro - (Am C Am C G D C) X 2

Am C
Voodoo Lady
Am C G D C
Shankin' that stick and drivin' me crazy
Am C Am C G D C
Your eyes looks red and hazy
Am C Am C G D C
Doin' that stuff that you do
Am C Am C G D C
Messin' me up with your voodoo
D
You drive me crazy with that
F
Boogie oogie oogie oogie oogie
D
You drive me crazy with that
E E E
Boogie boogie boogie
Am C Am C G D C
Your lips are hot and spicy
Am C Am C G D C
Servin' up red beans and rice
Am C Am C G D C
At midnite she's a howlin' and stompin'
Am C Am C G D C
Makin' love to the gators in the swampin'
D
You drive me crazy with that
F
Boogie oogie oogie oogie oogie
D
You drive me crazy with that
E E E
Boogie boogie boogie

Solo over (C, D, F, A min -- C, E)

E:--8-10---------------------------------
B:--------8-10---------------------------
G:--------------7-9--5-7--7b-7b-7-5------
D:----------------------------------7----
A:---------------------------------------
E:---------------------------------------

E:---------------------------------------
B:--------------------------------9-9-9-9
G:------5---7b-7-5---7b-7-5---5-7-9-9-9-9
D:--5-7---7--------7--------7------------
A:---------------------------------------
E:---------------------------------------

E:--8-10---------------------------------
B:-------8-10----------------------------
G:------------7-9-5-7-7b-7b-7-5----------
D:------------------------------7-5-7-5-7
A:---------------------------------------
E:---------------------------------------

E:---------------------------------------
B:---------------------------------------
G:--5------5-7b-7-5--8-7-5---8-7-5-------
D:----7--7-----------------7-------7-5-7-
A:---------------------------------------
E:---------------------------------------

Am C Am C G D C
I feel you now inside me
Am C Am C G D C
Never once did you deny me
Am C Am C G D C
Doin' that stuff that you do
Am C Am C G D C
Knockin' me out with your voodoo
D
You drive me crazy with that
F
Boogie oogie oogie oogie oogie
D
You drive me crazy with that
E E E
Boogie boogie boogie
Am C
Voodoo lady
Am C
Shakin' that stick drivin' me crazy
Am C
Voodoo lady

Oh yeah

Bridge

E |===============================
B |=2=3=4=5=6=7=8=9=10=11=12==13==
G |=2=3=4=5=6=7=8=9=10=11=12==13==
D |=2=3=4=5=6=7=8=9=10=11=12==13==
A |=0=1=2=3=4=5=6=7=8==9==10==11==
E |===============================

Bass part
E |====================
B |====================
G |====================
D |====================
A |===7=6=6=5=3========
E |=5===========0=3=4==

Guitar intro - (Am C Am C G D C) X 2

Am C
Voodoo Lady
Am C G D C
Shankin' that stick and drivin' me crazy
Am C Am C G D C
Your eyes looks red and hazy
Am C Am C G D C
Doin' that stuff that you do
Am C Am C G D C
Messin' me up with your voodoo
D
You drive me crazy with that
F
Boogie oogie oogie oogie oogie
D
You drive me crazy with that
E E E
Boogie boogie boogie

***Bass Tab*** tabbed by blamft (blamft@hotmail.com)

Intro
G-----|------------|--
D-----|*----------*|--
A-----|*----------*|--
E-0h3-|-5-5-5-0h3--|--
4 & 1 2 3 4 &

Verse
G--------------------------
D--------------------------
A-0-00--0h3--0-00--0h3-5-7-
E---------------------3----

Chorus
G-------------------------------------------
D-------------------------------------------
A-5-5-5-5-7-8-8-8-8-7-5-5-5-5/7-77--77--77\-
E-------------------------------------------

Solo
G----------------------------------------
D---------3-3----------------------------
A-3-3-5-5-----0-0-33333333-5-77777-5-3-2-
E----------------------------------------

G---------------------------------------
D---------3-3---------------------------
A-3-3-5-5-----0-0-3333333-5-77--77--77\-
E---------------------------------------

Bridge Pt1
G-------------------
D-------------------
A-0--------3--------
E-------------------
Voodoo lady etc

Bridge Pt2
G------------------------------------------------------------
D------------------------------------------------------------
A-0-0-1-1-2-2-3-3-4-4-5-5-6-6-7-7-8-8-9-9-10--10--11--11--12-
E--0-0-1-1-2-2-3-3-4-4-5-5-6-6-7-7-8-8-9-9--10--10--11--11---

Bridge Pt3
G------------------------------
D------------------------------
A--7-5-3---------7-5-3---------
E-5-----5-0-3-5-5-----5-0-3-5--

***Bass Tab 2*** by Geoffrey Dickens

w H e e q q q e e 3x q q q e e
||------|--r--|--r--------||-------------------||-------------r--||-----
||--4:--|--e--|--e--------||*-----------------*||-------------e--||*----
||--4:--|--s--|--s--------||*-----------------*||-------------s--||*----
||------|--t--|--t--0--3--||---5--5--5--0--3---||--5--5--5--5\t--||-----
Intro Bass in

e e q e e q e e q e e e s s 2x e e q e e
------------------|---------------------------||--||--------------------
------------------|-----------------------3--*||--||*-------------------
---------3--3--3--|-----------3-----5--3-----*||--||*-----------3--3----
5--5--5-----------|--5--5--5-----3------------||--||---5--5--5----------
Guitar in Verse 1

q e e q e e e s s 4x q q q e e q q q e e
---|---------------------------||-----------------|---------------------
---|-----------------------3--*||-----------------|---------------------
3--|-----------3-----5--3-----*||--5--5--5--5--7--|--8--8--8--8--7------
---|--5--5--5-----3------------||-----------------|---------------------
Chorus

q q q e e s s q s s q q e e q e e q e
|-----------------|--------r--------r----||---------------------|-------
|-----------------|--------e--------e----||*--------------------|-------
|--5--5--5--5--6--|--7--7--s--7--7--s--7\||*-----------3--3--3--|-------
|-----------------|--------t--------t----||---5--5--5-----------|--5----
Second Verse

e q e e e s s 4x q q q e e q q q e e q q
----------------------||-----------------|-----------------|------------
------------------3--*||-----------------|-----------------|------------
------3-----5--3-----*||--5--5--5--5--7--|--8--8--8--8--7--|--5--5------
5--5-----3------------||-----------------|-----------------|------------
Chorus

q e e s s q s s q q h h h Q e q q q q
---------|--------r--------r----||--------|-----------|-----------------
---------|--------e--------e----||--------|--3--------|-----------------
5--5--6--|--7--7--s--7--7--s--7\||--3--5--|--------2--|--3--3--3--3-----
---------|--------t--------t----||--------|-----5-----|-----------------
Solo

q q e e e e h h h Q e q q q e e s s
|--------------------|--------|-----------|-----------------|-----------
|--2--2--2--0--------|--------|--3--------|-----------------|-----------
|--------------3--2--|--3--5--|--------2--|--3--3--3--3--5--|--7--7-----
|--------------------|--------|-----5-----|-----------------|-----------

q s s q q e e q e e q e e q e e e s s 4x
r--------r----||---------------------|---------------------------||-----
e--------e----||*--------------------|-----------------------3--*||-----
s--7--7--s--7\||*-----------3--3--3--|-----------3-----5--3-----*||-----
t--------t----||---5--5--5-----------|--5--5--5-----3------------||-----
Third Verse

q q q e e q q q e e q q q e e s s q s s
---------------|-----------------|-----------------|--------r-----------
---------------|-----------------|-----------------|--------e-----------
5--5--5--5--7--|--8--8--8--8--7--|--5--5--5--5--6--|--7--7--s--7--7-----
---------------|-----------------|-----------------|--------t-----------
Chorus

q q w w w w w w e e e e e e e e
r----||-----|-----|-----|-----|-----|-----|-----------------------------
e----||-----|-----|-----|-----|-----|-----|-----------------------------
s--7\||--0--|--3--|--0--|--3--|--0--|--3--|--------------1-----1--------
t----||-----|-----|-----|-----|-----|-----|--5--0--5--0-----1-----1-----
Bridge quiet Bridge noisey

e e e e e e e e e e e e e e e e e e e e
|--------------------------|-----------------------|--------------------
|--------------------------|-----------------------|--------------------
|--2-----2-----3-----3-----|--4-----4-----5-----5--|--6-----6-----7-----
|-----2-----2-----3-----3--|-----4-----4-----5-----|-----6-----6--------

e e e e e e e e e e e e e e e e e e
---------|--------------------------|-----------------------------------
---------|--------------------------|-----------------------------------
---7-----|--8-----8-----9-----9-----|--10------10------11------11-------
7-----7--|-----8-----8-----9-----9--|------10------10------11-----------

e e e e e e e e e 20x e e q e e q e e
----||----------------------------||--||---------------------|----------
----||*--------------------------*||--||*--------------------|----------
----||*-----7--5--3--------------*||--||*-----------3--3--3--|----------
11--||---5-----------5--0--3--4---||--||---5--5--5-----------|--5--5----
Bass with noise

q e e e s s 2x e e q e e q e e q e e e s
-------------------||--||---------------------|-------------------------
---------------3--*||--||*--------------------|-------------------------
---3-----5--3-----*||--||*-----------3--3--3--|-----------3-----5--3----
5-----3------------||--||---5--5--5-----------|--5--5--5-----3----------
Chorus

s 4x q q q e e q q q e e q q q e e s s
----||-----------------|-----------------|-----------------|------------
3--*||-----------------|-----------------|-----------------|------------
---*||--5--5--5--5--7--|--8--8--8--8--7--|--5--5--5--5--6--|--7--7------
----||-----------------|-----------------|-----------------|------------

q s s q s s e
r--------r--------r--||-------------------------------------------------
e--------e--------e--||-------------------------------------------------
s--7--7--s--7--7--s--||-------------------------------------------------
t--------t--------t--||-------------------------------------------------


**Tabbed by Jerm and Todd and The Glidge
Awesome Sound - Ween Guitar tabs (www.vaxxine.com/mtbhl/ween.htm)