MISTER, WOULD YOU PLEASE HELP MY PONY? - words and music by Ween
**from the album "Chocolate and Cheese"

Our buddy Miko actually figured this song out for us. You the man Miko.

Mister, Would You Please Help My Pony? - by Ween

Main Riff

E |=4=4=4=4================================
B |=4=4=4=4================================
G |=4=4=4=4================================
D |=4=4=4=4========7====7=9=7==============
A |=2=2=2=2====7=9===9========9=7=9=7======
E |===================================9=7==

Intro (main riff)

E D#m
Mister, would you please help my pony?
D C#m
He's over there behind the tree
A G#m
He's down in the dirt would you help him?
(main riff)
I think it's his lung

E D#m
Mister, would you please help my pony?
D C#m
He's chewin' bar and not the leaves
A G#m
He's cryin' like a baby would you help him?
(main riff)
I think it's his lung

E D#m
Mister, would you please help my pony?
D C#m
He's down - He ain't gettin' up
A G#m
He coughed up snot on the driveway
(main riff)
And I think his lung's fucked up

F#m E F#m E F#m
Pon-y, pon-y, pony

Bridge Part 1: ( D, C#m, A, C#, D, F#m, B) X 2
Solo Part 2: ( E, D#m, D, C#m, A, G#m, B) X 2 *same as verses
Part 3: ( B, B, C, C#)

***Solo by by Rhys Lett***


E---||--11--12--|--14-----------12--14--|--14^-----(14)-----12----------
B---||----------|-----------------------|-----------------------14------
G---||----------|-----------------------|-------------------------------
D---||----------|-----------------------|-------------------------------
A---||----------|-----------------------|-------------------------------
E---||----------|-----------------------|-------------------------------


E---|------------------------|------------------------|-----------------
B---|--12--14--12------------|--12--------------------|-----------------
G---|--------------------13--|---------13\11--13--11--|--9--------------
D---|------------------------|------------------------|-----------------
A---|------------------------|------------------------|-----------------
E---|------------------------|------------------------|-----------------


E------|---------------------------------------|---------------|--------
B------|---------------------------------------|---------------|--------
G------|--8--9--11--9-----8--9------\13\13\13--|--11-----------|--------
D------|---------------------------------------|---------------|--------
A------|---------------------------------------|---------------|--------
E------|---------------------------------------|---------------|--------


E-------------------------|------12------------14------------------|----
B-------------------------|------12--------------------------------|----
G-------------------9--10/|--13---------13/14------14--13----------|----
D------------9--11--------|--------------------------------14------|----
A-------------------------|------------------------------------14--|----
E-------------------------|----------------------------------------|----


E----------------------------|----------------------|-------------------
B----------------------------|----------------------|-------------------
G----------------------------|----------------------|-------------------
D----------------------------|----------------------|-------------------
A---11--14-----11-----9--11--|--9\4--7--------------|--4--2--0----------
E----------------------------|----------------------|-------------------


E------------|-------------------------------------------------|--------
B------------|-------------------------------------------------|--------
G------------|-------------------------------------------------|--------
D------------|--2-----4^--(4)^--(4)^-----2--4--4^--4--2--4-----|--9-----
A------2--4--|-------------------------------------------------|--------
E------------|-------------------------------------------------|--------


E------------------------------------|----------------------------------
B------------------------------------|----------------------------------
G------------------8^--(8)-----------|----------------------------------
D---9--------8--9--------------------|--9-------------------------------
A------6--9--------------------------|-----9\6-----6-----6h9p6-----6----
E------------------------------------|----------------------------------


E---------------|--------------|----------------------------------------
B---------------|--------------|----------------------------------------
G---------------|--------------|----------------------------------------
D---------------|--------------|----------------------------------------
A---h9p6-----6--|--------------|--7--------7--7--7-----10--7-----10-----
E---------------|--------------|----------------------------------------


E------|-----------------------------------------|----------------------
B------|-----------------------------------------|----------------------
G------|--------------------10--10-----10h11p10--|----------------------
D------|------------10--11-----------------------|--11------------------
A---7--|-----8--11-------------------------------|------11--9--8--------
E------|--9--------------------------------------|----------------------


E------------|-----||---------------------------------------------------
B------------|-----||---------------------------------------------------
G------------|-----||---------------------------------------------------
D------------|-----||---------------------------------------------------
A---9--8--9--|--9--||---------------------------------------------------
E------------|-----||---------------------------------------------------

E D#m
Mister, would you please help my pony?
D C#m
He's over there lookin' at me
A G#m
He can't talk because he's a pony
(main riff)
I think it's his lung

(Repeat verse 1)

***Bass Tab*** by Geoffrey Dickens

Having more problems picking the bass perfectly on this album. The verse
bass will be missing a few notes here and there but it's all improvised.

e e e q s s e e s s s e E e e e e
||------|---------------------------|-----------------------------------
||--4:--|--------------------9------|--9h11p9------9--9-----------------
||--4:--|--------------9h11-----11--|----------11--------11--10--9------
||------|--7--7--7--7---------------|-----------------------------------
Intro

Q e e Q e q Q e Q e e Q e q Q e Q e
||-----r--------|-----------r--|-----r--------|-----------r--|-----r----
||-----e--------|-----------e--|-----e--------|-----------e--|-----e----
||--7--s--7--7--|--6--6--6--s--|--5--s--5--5--|--4--4--4--s--|-----s----
||-----t--------|-----------t--|-----t--------|-----------t--|--5--t----
Verse 1

e Q e q Q e e e e q s s e e s s s q s s
------|-----------r--|---------------------------|----------------------
------|-----------e--|--------------------9------|--9h11p9------9h11----
------|-----------s--|--------------9h11-----11--|----------11----------
5--5--|--4--4--4--t--|--7--7--7--7---------------|----------------------

s e e e Q e e Q e q Q e Q e e Q e q
---------------|-----r--------|-----------r--|-----r--------|-----------
p9-------------|-----e--------|-----------e--|-----e--------|-----------
----11--10--9--|--7--s--7--7--|--6--6--6--s--|--5--s--5--5--|--4--4-----
---------------|-----t--------|-----------t--|-----t--------|-----------

Q e Q e e Q e q Q e e e e q s s e e s
---r--|-----r--------|-----------r--|---------------------------|-------
---e--|-----e--------|-----------e--|--------------------9------|--9----
4--s--|-----s--------|-----------s--|--------------9h11-----11--|-------
---t--|--5--t--5--5--|--4--4--4--t--|--7--7--7--7---------------|-------

s e e e e e e e Q e e Q e q Q e Q e
-----9------------------------|-----r--------|-----------r--|-----r-----
h11-----11--10--9-------------|-----e--------|-----------e--|-----e-----
-------------------11--10--9--|--7--s--7--7--|--6--6--6--s--|--5--s-----
------------------------------|-----t--------|-----------t--|-----t-----

e Q e e e Q e Q e e Q e q Q e e e e q
7-----|-----6--------r--|-----r--------|-----------r--|-----------------
------|--------------e--|-----e--------|-----------e--|-----------------
---5--|--4-----4--4--s--|-----s--------|-----------s--|-----------------
------|--------------t--|--5--t--5--5--|--4--4--4--t--|--7--7--7--7-----

s s e e e e e e e e e e e e e e e e e
-------------|----------------------------||----------------------------
------9------|--9-------------------------||*---------------------------
9h11-----11--|-----11--10--9--5-----------||*--9--9--9--9--9--9--9------
-------------|-------------------9--8--7--||----------------------------
Chorus

e w 2x e e e e e e e e 2x Q e e Q
---|------||--||----------------------------||--||------r--------|------
---|-----*||--||*--------------------------*||--||*-----e--------|------
9--|--7--*||--||*--9--9--9--9--9--9--9--9--*||--||*--5--s--5--5--|------
---|------||--||----------------------------||--||------t--------|------
Bridge

e q Q e e Q e e Q e q q e e e Q e e Q
---------------|-----r--------|--------------------|-----r--------|-----
---------------|-----e--------|--------------------|-----e--------|-----
4--4--4-----4--|-----s--------|--4--4--4-----4-----|--5--s--5--5--|-----
---------4-----|--5--t--5--5--|-----------4-----4--|-----t--------|-----

e q Q q Q Q q e Q q q 2x Q e e Q e q Q
---------r--|-----------|---------------||-----r--------|---------------
4--4--4--e--|-----------|--------------*||-----e--------|---------------
---------s--|--2--2--2--|--2--2--2--2--*||--7--s--7--7--|--6--6--6------
---------t--|-----------|---------------||-----t--------|---------------
Solo
e Q e e Q e q Q e Q e e Q e q Q e e
r--|-----r--------|-----------r--|-----r--------|-----------r--|--------
e--|-----e--------|-----------e--|-----e--------|-----------e--|--------
s--|--5--s--5--5--|--4--4--4--s--|-----s--------|-----------s--|--------
t--|-----t--------|-----------t--|--5--t--5--5--|--4--4--4--t--|--7-----

e e h e h e e e e Q e e Q e q Q e Q e
---------r--|--r--r-----------|-----r--------|-----------r--|-----r-----
---------e--|--e--e-----------|-----e--------|-----------e--|-----e-----
---------s--|--s--s-----4--6--|--7--s--7--7--|--6--6--6--s--|--5--s-----
7--7--7--t--|--t--t--7--------|-----t--------|-----------t--|-----t-----

e Q e q Q e Q e e Q e q Q e e e e h
------|-----------r--|-----r--------|-----------r--||-------------------
------|-----------e--|-----e--------|-----------e--||*------------------
5--5--|--4--4--4--s--|-----s--------|-----------s--||*------------------
------|-----------t--|--5--t--5--5--|--4--4--4--t--||---7--7--7--7------

e w 2x e e e h e w e e e h e w Q e
r--|--r---||--------------r--|--r--|--------------r--|--r--||-----r-----
e--|--e--*||--------------e--|--e--|--------------e--|--e--||-----e-----
s--|--s--*||--------------s--|--s--|--------------s--|--s--||--9--s-----
t--|--t---||--8--8--8--8--t--|--t--|--9--9--9--9--t--|--t--||-----t-----
Verse 2
e Q e q Q e Q e e Q e q Q e Q e e Q
------|-----------r--|-----r--------|-----------r--|-----r--------|-----
------|-----------e--|-----e--------|-----------e--|-----e--------|-----
9--9--|--8--8--8--s--|--7--s--7--7--|--6--6--6--s--|-----s--------|-----
------|-----------t--|-----t--------|-----------t--|--7--t--7--7--|-----

e q Q e e e e q s s e e s s s s s s s s e
---------r--|---------------------------|-------------------------------
---------e--|-------------------11------|-11h13-11h13-11h13-11h13-11----
---------s--|-------------11h13-----13--|-------------------------------
6--6--6--t--|--9--9--9--9---------------|-------------------------------

e e e Q e e Q e q Q e Q e e Q e q Q
-----------|-----r--------|-----------r--|-----r--------|---------------
-----------|-----e--------|-----------e--|-----e--------|---------------
13--12-11--|--9--s--9--9--|--8--8--8--s--|--7--s--7--7--|--6--6--6------
-----------|-----t--------|-----------t--|-----t--------|---------------

e Q e e Q e q Q e e e e e h
r--|-----r--------|-----------r--|--------------r--||-------------------
e--|-----e--------|-----------e--|--------------e--||-------------------
s--|-----s--------|-----------s--|--------------s--||-------------------
t--|--7--t--7--7--|--6--6--6--t--|--9--9--9--9--t--||-------------------

**Tabbed by our buddy Miko
Awesome Sound - Ween Guitar tabs (www.vaxxine.com/mtbhl/ween.htm)