BABY BITCH - words and music by Ween
*from the album Chocolate and Cheese

Here is a great song by Ween that's all open chords and is easy and fun
to play. There are only four chords to the song, and it follows the same
pattern throughout. The version on C & C is up a step (F#m, A, E, Bm) if
you want to play it that way. It's in 3/4 time too dudes.

Baby Bitch

Em G D Am
It's been a while since I've seen you smile
Em G D D
But now you've come back again
Em G D Am
Came into the room and you saw my girl
Em G D D
And you asked her how long it's been
Em G D Am
"A year" she said and you shook your head
Em G D (hold D)
Said "I'm surprised its gone on that long"

Em G D Am
Baby, Baby, Baby, Bitch
Em G D D
For words I am at a loss
Em G D Am
Baby, Baby, Baby, Bitch
Em G D D
I'm better now please fuck off

What else you gonna say while you're back on your stay
Maybe something, maybe nothing we'll see
It's just too bad, you're beautiful I guess
I wasn't for you and you weren't for me

Baby, Baby, Baby, Bitch
Please slip back into yourself
Baby, Baby, Baby, Bitch
Go conquer someone else

People say, "How beautiful, how sweet, how kind"
You're perfect, you've got nothing to hide
But I, for one, have seen the sun
And the bitch that you've locked up inside
Got fat, got angry, started hating myself
Wrote "Birthday Boy" for you babe
Now I'm skinny and sick and paranoid
Without a cent to my name

Baby, Baby, Baby, Bitch
Fuck you, you stinkin' ass ho
Most beauty I've seen
You come from a dream
But I can't close my eyes anymore
No, I can't close my eyes anymore

***Bass Tab*** by Geoffrey Dickens

I may have missed a note here or there, sorry >:O)

H H H H Q e e e H H H
||------||------|-----|-----|-----|--r-----------|-----|-----|-----|----
||--3:--||*-----|-----|-----|-----|--e-----------|-----|-----|-----|----
||--4:--||*-----|-----|-----|--2--|--s--2--------|-----|-----|-----|----
||------||---2--|--5--|--0--|-----|--t-----5--4--|--2--|--5--|--0--|----
First Verse

H 2x H H H H Q e e e H H H H
r---||-----|-----|-----|-----|--r-----------|-----|-----|-----|---------
e--*||-----|-----|-----|-----|--e-----------|-----|-----|-----|---------
s--*||-----|-----|-----|--2--|--s--2--------|-----|-----|-----|---------
t---||--2--|--5--|--0--|-----|--t-----5--4--|--2--|--5--|--0--|--0------

H q q q H H H H Q e e e H H
|-----|----------||------|-----|-----|-----|--r-----------|-----|-------
|-----|----------||*-----|-----|-----|-----|--e-----------|-----|-------
|-----|----2-----||*-----|-----|-----|--2--|--s--2--------|-----|-------
|--0--|/4-----4--||---2--|--5--|--0--|-----|--t-----5--4--|--2--|--5----
Chorus

H H 2x H H H H Q e e e H H
|-----|------||-----|-----|-----|-----|--r-----------|-----|-----|------
|-----|-----*||-----|-----|-----|-----|--e-----------|-----|-----|------
|-----|-----*||-----|-----|-----|--2--|--s--2--------|-----|-----|------
|--0--|--0---||--2--|--5--|--0--|-----|--t-----5--4--|--2--|--5--|------
Second Verse

H H H H H H Q e e e H H H H
---|--r--|-----|-----|-----|-----|--r-----------|-----|-----|-----|-----
---|--e--|-----|-----|-----|-----|--e-----------|-----|-----|-----|-----
---|--s--|-----|-----|-----|--2--|--s--2--------|-----|-----|-----|-----
0--|--t--|--2--|--5--|--0--|-----|--t-----5--4--|--2--|--5--|--0--|--0--

H H H H q q q H Q e e e H h q
|-----|-----|-----|-----|-----------|-----|--------------|-----|--------
|-----|-----|-----|-----|-----------|-----|--------------|-----|--------
|-----|-----|-----|-----|--7--7--7--|--2--|--2--2--------|-----|--------
|--0--|--0--|--2--|--5--|-----------|-----|--------5--4--|--2--|--5--5--
Chorus

H H H H H H H H H H H
|-----|-----|-----|-----|-----|-----|-----|-----|-----|-----|-----|-----
|-----|-----|-----|-----|-----|-----|-----|-----|-----|-----|-----|-----
|-----|-----|-----|-----|-----|--2--|--2--|-----|-----|-----|-----|-----
|--0--|--0--|--2--|--5--|--0--|-----|-----|--2--|--5--|--0--|--0--|-----

H H H H Q e e e H H H H H
---|-----|-----|-----|--r-----------|-----|-----|-----|--r--|-----|-----
---|-----|-----|-----|--e-----------|-----|-----|-----|--e--|-----|-----
---|-----|-----|--2--|--s--2--------|-----|-----|-----|--s--|-----|-----
2--|--5--|--0--|-----|--t-----5--4--|--2--|--5--|--0--|--t--|--2--|-----
Third Verse

H H H Q e e e H H H H H H
---|-----|-----|--r-----------|-----|-----|-----|-----|-----|-----|-----
---|-----|-----|--e-----------|-----|-----|-----|-----|-----|-----|-----
---|-----|--2--|--s--2--------|-----|-----|-----|-----|-----|-----|-----
5--|--0--|-----|--t-----5--4--|--2--|--5--|--0--|--0--|--2--|--5--|-----

H H Q e e e H H H q q q H H
---|-----|--r-----------|-----|-----|-----|-----------|-----|-----|-----
---|-----|--e-----------|-----|-----|-----|-----------|-----|-----|-----
---|--2--|--s--2--------|-----|-----|-----|-----------|-----|-----|-----
0--|-----|--t-----5--4--|--2--|--5--|--0--|--0--0--0--|--2--|--5--|-----

H H Q e e e H H H H H e e e e
---|-----|--r-----------|-----|-----|-----|-----|-----|-----------------
---|-----|--e-----------|-----|-----|-----|-----|-----|-----------------
---|--2--|--s--2--------|-----|-----|-----|-----|-----|-----------------
0--|-----|--t-----5--4--|--2--|--5--|--0--|--0--|--0--|--0--0--0--0-----

e e H H H H H H H H q q q
------||------|-----|-----|-----|-----|-----|-----|-----|---------------
------||*-----|-----|-----|-----|-----|-----|-----|-----|---------------
------||*-----|-----|-----|--2--|--2--|-----|-----|-----|---------------
0--0--||---2--|--5--|--0--|-----|-----|--2--|--5--|--0--|--0--0--0------
Chorus

2x H H H H Free time.... (listen to song for timing)
-||-----|-----|-----|-----|-----------------------------------9--/13-||-
*||-----|-----|-----|-----|-----------------------------6---9--------||-
*||-----|-----|-----|-----|---------------------------7--------------||-
-||--2--|--5--|--0--|--0--|--2--------5--------0---------------------||-

**Tabbed by Jerm and Todd
Awesome Sound - Ween Guitar tabs (www.vaxxine.com/mtbhl/ween.htm)