A TEAR FOR EDDIE - words and music by Ween
from the album "Chocolate and Cheese"

A Tear For Eddie - by Ween

*****Part 1 (main verse section)

Guitar I:
e|======================================================|
B|====5=7===5=7=9=7=5=7=5===9=7=====5=7===5=7=9=7=5=7=5=|
G|==6=============================6=====================|
D|======================================================|
A|======================================================|
E|======================================================|

Guitar II:

F#min. - Emaj. 4x

*****Part 2

Guitar I:
e|================================================================|
B|=======9=9=10=7==5=9=7=5=7====9=7=========9=9=10=7==5=9=7=5=7===|
G|===========================6==================================6=|
D|=4=5=6==============================4=5=6=======================|
A|================================================================|
E|================================================================|

Guitar II:

E|=======
B|=======
G|=======
D|=======
A|=======
E|=2=3=4= G#maj. - C#min. 2x

*****Part 3

Guitar I:

(first and fourth time only)
e|=9=7=5=4=2=0===========================|
B|=============2=0=======================|
G|=================2=0===================|
D|=====================4=2=0===0=2=4===2=|
A|===========================0===========|
E|=======================================|

(second and third time only)
e|=9=7=5=4==2==0=======================|
B|===============2=0===================|
G|===================2=0===============|
D|=======================4=2=0=2=4===2=|
A|=====================================|
E|=====================================|

e|=b14=14=12=14=16=14=12=====12====12=14=14====12======|
B|=======================b14====14=====================|
G|=====================================================|
D|=====================================================|
A|=====================================================|
E|=====================================================|

Guitar II:
Amaj. - G#min. - F#min. 2x

then back to Part 1. Repeat this structure 3x and at the end of the
third time instead of going back to Part 1 you go to Part 4.

******Part 4

F#min. - C#min. ad nauseum

This the part where Deaner improvs for a while, so stretch out a
bit here. The turnaround to get back to the regular song structure
is to go to Part 3. Play this part 2x. You should listen to the live
versions of this tune to get an idea of the live structure, especially
the Zurich gig. Deaner was on fire that night.

The live intro is:

E--9---7--
B--10--9--
G--9---9--
D--11--9--
A--9---7--
E---------

These are the same chords, F#min. to Emaj. but just
played up a little higher on the fretboard. If you
hammer and pull off the 'A' note on the 10th fret in
the F#min. then you can duplicate Deaner little
intro
almost verbatim.

***Version 2*** by Gabou!!!

E||--------------------------|-------------------------|--------------------|
B||--------------------------|--9----------------------|--------------------|
G||------9--11--------9--11--|-----11--9--11--9--------|--11r---------------|
D||--11----------------------|-------------------------|--------------------|
A||--------------------------|-------------------------|--------------------|
E||--------------------------|-------------------------|--------------------|


--------------------------|-------------------------|-------------------|
--------------------------|--9----------------------|--9----------------|
------9--11--------9--11--|-----11--9--11--9--------|-------------------|
--11----------------------|-------------------------|-------------------|
--------------------------|-------------------------|-------------------|
--------------------------|-------------------------|-------------------|


----------------------|----------------------------|-------------------|
--10------------------|-----9----------------------|--9----------------|
--------11------------|--9-----11--9h-11h-9--------|-------------------|
----------------------|----------------------11----|-------------------|
----------------------|----------------------------|-------------------|
----------------------|----------------------------|-------------------|


----------------------|----------------------------|
--10------------------|-----9----------------------|
--------11------------|--9-----11--9h-11h-9--------|
----------------------|----------------------11----|
----------------------|----------------------------|
----------------------|----------------------------|


--11--9-----------------------|------------------------------|
--x------12--11--9------------|------------------------------|
--------------------11--9--9h-|--11h-9-----------------------|
------------------------------|---------11--10--9------------|
------------------------------|--------------------11--9/-7h-|
------------------------------|------------------------------|


--------------------|--14r---12----14r-------|--14--12--14--12--------12h-14--|
--------------------|------------------------|------------------14------------|
--------------------|------------------------|--------------------------------|
--------------------|------------------------|--------------------------------|
--9--------7--------|------------------------|--------------------------------|
--------------------|------------------------|--------------------------------|


--------12----------|
--------------------|
--------------------| etc...
--------------------|
--------------------|
--------------------|

Tabbed by GABOU !!!

***Version 3*** Tab by Rhys Lett

Theme
E---||-----------|-------------------------|----------------------------
B---||-----------|-------------------------|----------------------------
G---||-----9-----|--11-----9--11--11^--11--|--9--------------11^--11----
D---||\11--------|-------------------------|----------------------------
A---||-----------|-------------------------|----------------------------
E---||-----------|-------------------------|----------------------------


E------|-----------------------|-----------------------------------|----
B------|-----------------------|-----------------------------------|----
G------|-----------------9-----|--11--------9--11--11^--11--9--11--|----
D------|------------\11--------|-----------------------------------|----
A------|-----------------------|-----------------------------------|----
E------|-----------------------|-----------------------------------|----


E---------------|-------------------------------------------------------
B---------------|--9--9--10---------------------------------------------
G---9-----------|------------11-----9--11^--11--9--11-------------------
D---------------|--------------------------------------11---------------
A---------------|-------------------------------------------------------
E---------------|-------------------------------------------------------


E--------------------------|--------------------------------------------
B--------------------------|--9--9--10----------------------------------
G------11/13-----11-----9--|------------11-----9--11^--11--9--11--------
D--------------------------|--------------------------------------11----
A--------------------------|--------------------------------------------
E--------------------------|--------------------------------------------


E------|/9---------------------------|----------------------------------
B------|----12--10--9----------------|----------------------------------
G------|---------------11--9---------|----------------------------------
D------|----------------------11--9--|----------------------------------
A------|-----------------------------|--11--10--9--7--------7--9--------
E------|-----------------------------|----------------9-----------------


E------|----------------|--14^--12~~~--------14^--14--12------|--12-----
B------|----------------|---------------------------------14--|---------
G------|----------------|-------------------------------------|---------
D------|----------------|-------------------------------------|---------
A---7--|h9~~~-----7-----|-------------------------------------|---------
E------|----------------|-------------------------------------|---------

Solo
E---h14-----------||--------------|--------------------------|----------
B-----------------||--------------|--------------------------|--7^------
G-----------------||--------------|-----------------4--6-----|----------
D-----------------||--------------|--------2--4--6-----------|----------
A-----------------||--2--4--------|--2--4--------------------|----------
E-----------------||--------------|--------------------------|----------


E---------------------------|-------------------------------------------
B---7--5-----5--7--5--------|--12-----------9--12--9--12--9--12--9------
G---------------------------|-------------------------------------------
D---------------------------|-------------------------------------------
A---------------------------|-------------------------------------------
E---------------------------|-------------------------------------------


E-----------------------------------------------------------------------
B---12--9--12--9--12--9--12--9--12--9--12--9--12--9--12--9--12--9-------
G-----------------------------------------------------------------------
D-----------------------------------------------------------------------
A-----------------------------------------------------------------------
E-----------------------------------------------------------------------


E------------------------------------------|--12^--12--9--12--9---------
B---12--9--12--9--12--9--12-----12^--(12)--|---------------------12-----
G------------------------------------------|----------------------------
D------------------------------------------|----------------------------
A------------------------------------------|----------------------------
E------------------------------------------|----------------------------


E-----------------------------------------------------------------------
B------10--9------------------------------------------------------------
G-------------11--9-----------------------------------------------------
D--------------------11--10--9------------------------------------------
A-------------------------------11--10--9--7-----7-----7--9--9^--9------
E---------------------------------------------9-----9-------------------


E------------|--------------------------------|-------------------------
B------------|--------------------------------|-------------------------
G------------|--------------------------------|-------------------------
D------------|--------------------------------|-------------------------
A---7--9--7--|-----------------7--------------|--7--9^--9---------------
E------------|--9--------7--9-----9-----------|-------------------------


E------------------------------------12--14--|--12--14--14^--12--14-----
B----------------------9--11--12/14----------|--------------------------
G---------------9--11------------------------|--------------------------
D--------9--11-------------------------------|--------------------------
A---/11--------------------------------------|--------------------------
E--------------------------------------------|--------------------------


E---12--14^--14--|--14^--14--12--14--12------12h14-----12---------------
B----------------|-----------------------14----------------14--12-------
G----------------|------------------------------------------------------
D----------------|------------------------------------------------------
A----------------|------------------------------------------------------
E----------------|------------------------------------------------------


E------------------|-------------------------9--------------------------
B------------------|----------------------------9-----------------------
G---13--11--9------|--11^--11--9--------11^--------11--9----------------
D--------------11--|--------------------------------------11------------
A------------------|----------------------------------------------------
E------------------|----------------------------------------------------


E-----------------------------------------------------------------------
B-----------------------------------------------------------------------
G------11^--11--9--11--------11^--11--9--11--------11^--11--9--11-------
D-----------------------------------------------------------------------
A-----------------------------------------------------------------------
E-----------------------------------------------------------------------


E-------------------------------12--14--------16--19^--------16h19------
B-----------------------------------------------------------------------
G------11^--11--9--11------/13------------------------------------------
D-----------------------------------------------------------------------
A-----------------------------------------------------------------------
E-----------------------------------------------------------------------


E---19-----19^--21^--21^--19--16----------------------------------------
B---------------------------------20--19--17-----------17h19p17--14-----
G-----------------------------------------------------------------------
D-----------------------------------------------------------------------
A-----------------------------------------------------------------------
E-----------------------------------------------------------------------


E------------12h14p12------12--14^-----|--9h12p9------------------------
B----------------------14-----------0--|----------12-----9h12p9---------
G-----------------------------------0--|-------------------------11-----
D-----------------------------------0--|--------------------------------
A--------------------------------------|--------------------------------
E--------------------------------------|--------------------------------


E-----------------------------------------------------------------------
B-----------------------------------------------------------------------
G------9h11p9-----------------------------------------------------------
D--------------11-----9h11p9--------------------------------------------
A-----------------------------11--9--11--9--7-----------------9--7------
E----------------------------------------------9--------9--7------------

***Bass Tab*** by Geoffrey Dickens

w H q w w w w w w w
||------|--r--|--r-----|-----|--r--|-----|--r--|-----|--r--|-----|------
||--4:--|--e--|--e-----|-----|--e--|-----|--e--|-----|--e--|-----|------
||--4:--|--s--|--s-----|-----|--s--|-----|--s--|-----|--s--|-----|------
||------|--t--|--t--14\|--2--|--t--|--0--|--t--|--2--|--t--|--0--|------

H e e w w w H e e w w w w w
r--------|-----|-----|-----|--r--------|-----|-----|-----|--r--|--------
e--------|-----|--6--|-----|--e--------|-----|--6--|-----|--e--|--7-----
s--------|-----|-----|--4--|--s--------|-----|-----|--4--|--s--|--------
t--2--3--|--4--|-----|-----|--t--2--3--|--4--|-----|-----|--t--|--------

w w w w w w w w w w w
|-----|-----|--r--|-----|-----|-----|--r--||------|--r--|-----|--r------
|--6--|--4--|--e--|-----|-----|-----|--e--||*-----|--e--|-----|--e------
|-----|-----|--s--|-----|-----|-----|--s--||*-----|--s--|-----|--s------
|-----|-----|--t--|--5--|--4--|--2--|--t--||---2--|--t--|--0--|--t------

w w w H e e w w w H e e w
|-----|--r--|-----|--r--------|-----|-----|-----|--r--------|-----|-----
|-----|--e--|-----|--e--------|-----|--6--|-----|--e--------|-----|-----
|-----|--s--|-----|--s--------|-----|-----|--4--|--s--------|-----|-----
|--2--|--t--|--0--|--t--2--3--|--4--|-----|-----|--t--2--3--|--4--|-----

w w w w w w w w w w w 3x
---|-----|--r--|-----|-----|-----|--r--|-----|-----|-----|--r---||------
6--|-----|--e--|--7--|--6--|--4--|--e--|--7--|--6--|--4--|--e--*||------
---|--4--|--s--|-----|-----|-----|--s--|-----|-----|-----|--s--*||------
---|-----|--t--|-----|-----|-----|--t--|-----|-----|-----|--t---||------

w e h e e e w q h e e w e h e e e
---|--------r--------|-----|--------r----|-----|-----------------|------
---|--------e--------|-----|--------e----|-----|-----------------|------
---|--------s-----2--|--4--|--4--4--s--7\|-----|--------------2--|------
2--|--2--2--t--4-----|-----|--------t----|--2--|--2--2--2--4-----|------
More-distorted guitar

w e H e w e h e e e w e H e w e h
---|----------|-----|-----------------|-----|----------|-----|----------
---|----------|-----|-----------------|-----|----------|-----|----------
4--|--4--4--7\|-----|--------------2--|--4--|--4--4--7\|-----|----------
---|----------|--2--|--2--2--2--4-----|-----|----------|--2--|--2--2----

e e e w e H e H e e e h e e e w e
---------|-----|----------|-----r-----|-----------------|-----|---------
---------|-----|----------|-----e-----|-----------------|-----|---------
------2--|--4--|--4--4--7\|-----s-----|--------------2--|--4--|--4------
2--4-----|-----|----------|--2--t--2--|--2--2--2--4-----|-----|---------

H e w e h e e e w e H e w e H e w
-----|-----|-----------------|-----|----------|-----|--------r--|-------
-----|-----|-----------------|-----|----------|--7--|--6--6--e--|--4----
4--7\|-----|--------------2--|--4--|--4--4--7\|-----|--------s--|-------
-----|--2--|--2--2--2--4-----|-----|----------|-----|--------t--|-------

w e H e e H e w w H e e e h e e
|--r--|--------r--|--------r--|-----|--r--|-----r-----|-----------------
|--e--|--7--7--e--|--6--6--e--|--4--|--e--|-----e-----|-----------------
|--s--|--------s--|--------s--|-----|--s--|-----s-----|-----------------
|--t--|--------t--|--------t--|-----|--t--|--2--t--2--|--2--2--2--4-----

e w e H e H e e e h e e e w e H e
---|-----|----------|-----r-----|-----------------|-----|---------------
---|-----|----------|-----e-----|-----------------|-----|---------------
2--|--4--|--4--4--7\|-----s-----|--------------2--|--4--|--4--4--7------
---|-----|----------|--2--t--2--|--2--2--2--4-----|-----|---------------

H e e h h w h h h h
-|-----r-----|--------|-----|--r--|--r--|--r--|--r--||------------------
-|-----e-----|--------|-----|--e--|--e--|--e--|--e--||------------------
\|-----s-----|--------|-----|--s--|--s--|--s--|--s--||------------------
-|--2--t--2--|--2--4--|--0--|--t--|--t--|--t--|--t--||------------------

**Tabbed by Todd and the Glidge
Awesome Sound - Ween Guitar tabs (www.vaxxine.com/mtbhl/ween.htm)