I CAN'T PUT MY FINGER ON IT - words and music by Ween
**from the album "Chocolate and Cheese"

I Can't Put My Finger On It - by Ween

THE MAIN RIFF FOR THIS SONG IS:

E|--------------------------------------------------------------------
B|--------------------------------------------------------------------
G|--7-----7--8--7--6--7-7--5--7----------5-7-----7--8-7--6--7--7--5-7-
D|--7-----7--8--7--6--7-7--5--7----------5-7-----7--8-7--6--7--7--5-7-
A|--------------------------------------------------------------------
E|--------------------------------------------------------------------

THE MID POINT OF THE SONG WHERE IT GOES, "ARE YOU SURPRISED
WHEN I TOUCHED THE DWARF INSIDE":

E|--------------------------------------------------
B|--------------------------------------------------
G|-------7------5-----10-----9------7------5-----2--
D|-------7------5-----10-----9------7------5-----2--
A|-------5------3------8-----7------5------3-----0--
E|--------------------------------------------------

Is it alive, does it writhe
Can it survive under the sun?
I can't put my finger on it
Is it green, is it red
Is it alive or is it dead
I can't put my finger on it
Scathe with with a lathe
All the days in the past
I can't put my finger on it
Is it brown is it white
Is it really outta sight
I can't put my finger on it

Can it squeal, does it squirm
If it's fresh will it burn?
I can't put my finger on it
Can it fly, will it try
If the wings are still wet?
I can't put my finger on it
Can it heal, is it real
Can it feel the threads of time?
I can't put my finger on it
Does it glow, will it shine
Does it leave a trail of slime?
I can't put my finger on it

Are you surprised when I touch the dwarf inside?

(Repeat three times)
(Repeat first verse)

**Note: here's the middle part supplied by MHWKJones via Dan Erat's tabs

C5(add6): xxx213
F5(add6): xxx768

you pluck them one at a time..slide from the c to the f

***Version 2*** - by the Glidge

'HEBREW' INTRO:

Dmin.

Skidderreeeeeeeaaiiiiyaaahhhaaaahhhhaaiiiiaahh.....

Cmaj.

Bachdatarreeeeeeeeaaaiiiyaaaaaaahhhhhhhhh

A#maj.

Nachbadacharooooooo nachna eeeeyaaaahhhhhhhaaaahh

Amaj.

Aaaaaaah aaahh aaaaaaaaaaaahhhhhhhh...........

NOTE: Hang on the first Dmin. for oh, say... 5 minutes or so before
going down to the C.

Verse: "Is it alive does it writhe can it
survive..."

E:--5--5-----5-----5--5-- Figger out the strum
B:--6--6-----6-----6--6-- pattern yerselves, kids.
G:--7--7--8--7--6--7--7--
D:--7--7--8--7--6--7--7--
A:--5--5--6--5--4--5--5--
E:-----------------------

Bridge: "Aaaaahhhh..."

E:---------- Play 4x
B:----------
G:--12--17--
D:--10--15--
A:--12--17--
E:----------

NOTE: This is exactly how Mig plays the bridge--it's verbatim dudes.

Chorus: "Are you surprised when I touch..."

E:--5------------5-----5----------------- Play 4x
B:--6------------6-----5-----------------
G:--7--5--10--9--7--5--6-----------------
D:--7--5--10--9--7--5--7-----------------
A:--5--3--8---7--5--3--7-----------------
E:---------------------5--5(semitone bend)

***Bass Tab*** by Geoffrey Dickens

Played with crazy bass wah and fuzz.

w 2x q e q e e e 15x q e q e q w
||------||---r---||--||----------------------||----------------|--------
||--4:--||*--e--*||--||*--------------------*||----------------|--------
||--4:--||*--s--*||--||*--5--3--5--0--3--0--*||--5--3--5--0--3/|--12----
||------||---t---||--||----------------------||----------------|--------
Intro Verse One Beach sounds

H q H q H q h q e e H q h q
|--------|---------|---------|-----------------|---------|--------------
|--------|---------|---------|------14---------|---------|------14------
|/17--17\|--12--12/|--17--17\|--12------12--12/|--17--17\|--12----------
|--------|---------|---------|-----------------|---------|--------------

e e H q q e q e e e 15x q e q e q H q
-------|---------||----------------------||----------------|------------
-------|---------||*--------------------*||----------------|------------
12--12/|--17--17\||*--5--3--5--0--3--0--*||--5--3--5--0--3/|--12--12----
-------|---------||----------------------||----------------|------------
Second Verse Beach sounds

H q h q q H e e 3x Q Q Q Q q
-|---------||--------------|------17------||--||------------|-----------
-|---------||*------14-----|-------------*||--||*--------3--|--2--------
/|--17--17\||*--12------12/|--17------17\*||--||*--5--3-----|-----5-----
-|---------||--------------|--------------||--||------------|-----------
Dwarf bit

q w w 3x Q Q Q Q q q w e e e e e e
---|-----|------||-----------|-----------|-----|------------------------
---|-----|-----*||--------3--|--2--------|-----|------------------------
3--|--0--|--0--*||--5--3-----|-----5--3--|--0--|--5--5--5--5--5--5------
---|-----|------||-----------|-----------|-----|------------------------

e e q e q e e e 15x e e e e e Q
------||----------------------||-----r-----------r--||------------------
------||*--------------------*||-----e-----------e--||------------------
5--5--||*--5--3--5--0--3--0--*||--5--s--5--5--5--s--||------------------
------||----------------------||-----t-----------t--||------------------
Third Verse

**Tabbed by Jason Novalis and the Glidge
Awesome Sound - Ween Guitar tabs (www.vaxxine.com/mtbhl/ween.htm)