SPINAL MENINGITIS (GOT ME DOWN) - words and music by Ween
**from the album "Chocolate and Cheese"

The main riff is played throught the verses, and barre chords for the chorus.
I stole most o' this song from Dan Erat (http://www.chocodog.com/erat/) But
I think Deaner plays the main riff up where I have it. I'm never sure tho'.

Main Riff

E |====================================================
B |====================================================
G |==11=13=14=13=11===========11=13=14=13=11===========
D |=================13=11=13=================13=11=13==
A |====================================================
E |====================================================

Spinal Meningitis (Got Me Down) - by Ween

Intro (main riff X 2)

Why they wanna see my spine mommy?
Why they wanna see my spine?
It's gonna hurt again mommy
Much worse than last time
Am I gonna see God mommy?
Am I gonna die?
It really hurts mommy!
Am I gonna die?

F#
Smile on mighty Jesus
A E F# F# A E
Spinal meningitis got me down
F#
Smile on might Jesus
A E F# F# A E
Spinal meningitis got me down

I'm feelin' greasy mommy
Please don't let me die
Stinky vaseline mommy
Please don't let me die
Am I gonna see God mommy?
Am I gonna die?
It really hurts mommy!
Am I gonna die?

F#
Smile on mighty Jesus
A E F# F# A E
Spinal meningitis got me down
F#
Smile on might Jesus
A E F# F# A E
Spinal meningitis got me down

solo

E F# X 4

F# A E (play chorus X 2)

outro (main riff X 2)

***Bass Tab*** by Geoffrey Dickens

w w q q q q q q q q q q q q
----|--r--|--r--|-----------------|--------------|-----------------|----
4:--|--e--|--e--|-----------------|--------------|-----------------|----
4:--|--s--|--s--|--9--11--12--11--|--9--7-----7--|--9--11--12--11--|----
----|--t--|--t--|-----------------|--------9-----|-----------------|----
Intro

Q e q q q q q q q q q q q q q q
------------||------------------|--------------|-----------------|------
------------||*-----------------|--------------|-----------------|------
9--7-----7--||*--9--11--12--11--|--9--7-----7--|--9--11--12--11--|------
------9-----||------------------|--------9-----|-----------------|------
First Verse

Q e q q 4x q q q q q e e e e q q q q q
-------------||--||---------------|--------------------|----------------
------------*||--||*--------------|--------------------|----------------
9--7-----7--*||--||*--------------|--------------------|----------------
------9------||--||---2--2--2--2--|--2--2--2--2--2--2--|--5--5--5--5----
Chorus

q q h 4x q q q q q q q q q q q q
|------------||-----------------|--------------|-----------------|------
|-----------*||-----------------|--------------|-----------------|------
|-----------*||--9--11--12--11--|--9--7-----7--|--9--11--12--11--|------
|--0--0--0---||-----------------|--------9-----|-----------------|------

Q e q q q q q q q q q q q q q q
------------||------------------|--------------|-----------------|------
------------||*-----------------|--------------|-----------------|------
9--7-----7--||*--9--11--12--11--|--9--7-----7--|--9--11--12--11--|------
------9-----||------------------|--------9-----|-----------------|------
Second Verse

Q e q q 4x q q q q q e e e e q q q q q
-------------||--||---------------|--------------------|----------------
------------*||--||*--------------|--------------------|----------------
9--7-----7--*||--||*--------------|--------------------|----------------
------9------||--||---2--2--2--2--|--2--2--2--2--2--2--|--5--5--5--5----
Chorus

q q h 4x e e e e e h h h q e q Q H q
|------------||-----------------r--|--r-----|-----------r--|--r---------
|-----------*||-----------------e--|--e-----|-----------e--|--e---------
|-----------*||-----------------s--|--s-----|-----------s--|--s---------
|--0--0--0---||--2--2--2--2--2--t--|--t--0--|--2--2--2--t--|--t--0------
Solo intro

e e e e e h h h q e q Q H q q q q q
|-----------------r--|--r-----|-----------r--|--r----||-----------------
|-----------------e--|--e-----|-----------e--|--e----||*----------------
|-----------------s--|--s-----|-----------s--|--s----||*----------------
|--2--2--2--2--2--t--|--t--0--|--2--2--2--t--|--t--7\||---2--2--2--2----
Solo

q e e e e q q q q q q q h 5x q q q
|--------------------|--------------|------------||--||-----------------
|--------------------|--------------|-----------*||--||*----------------
|--------------------|--------------|-----------*||--||*--9--11--12-----
|--2--2--2--2--2--2--|--5--5--5--5--|--0--0--0---||--||-----------------
Outro

q q q q q q q q q Q e q q 2x e e
----|--------------|-----------------|---------------||------------||----
----|--------------|-----------------|--------------*||------------||----
11--|--9--7-----7--|--9--11--12--11--|--9--7-----7--*||--9--9------||----
----|--------9-----|-----------------|--------9------||------------||----

**Tabbed by Jerm and Todd
Awesome Sound - Ween Guitar tabs (www.vaxxine.com/mtbhl/ween.htm)