TAKE ME AWAY - words and music by Ween
*from the album Chocolate and Cheese

**Version 1**

This is for the version on C&C. Song starts out with a Bb chord at the
13th fret. At 3 seconds a vamp on Em and F#m starts and this is the basis
for all of the verses. The Bb returns at 37 seconds for the "crazy" part.
This cycle is repeated for the remaining verses, solo, and interlude.

Bb Em F#m
E|==13==|==7==7==9===9====7==7==9====9===
B|==13==|==8==8==10==10===8==8==10===10==
G|==14==|==9==9==11==11===9==9==11===11==
D|==15==|==9==9==11==11===9==9==11===11==
A|==15==|==7==7==9===9====7==7==9====9===
E|==13==|================================

**Version 2**

Little intro:

(stroke up&down w/pick up and down very fast, rapdily)

E:--------------------------------------------------------------------------
B:-11--11--11--11--11--11--11--11--11--11--11--11--11--11--11--11--11--11---
G:-12--12--12--12--12--12--12--12--12--12--12--12--12--12--12--12--12--12---
D:-12--12--12--12--12--12--12--12--12--12--12--12--12--12--12--12--12--12---
A:--------------------------------------------------------------------------
E:--------------------------------------------------------------------------

MAIN RIFF:

play this figure than go back to the little intro when Gene goes
crazy when he is singing the word "Craaaaaaaazaay" too.

E:-------------------------------------
B:--8------10--10-----8--8-----10---10-
G:--9------11--11-----9--9-----11---11-
D:--9------11--11-----9--9-----11---11-
A:-------------------------------------
E:-------------------------------------

solo: (almost all notes are bended to get the same sound the album has)

E:-------------------------------------------------------------------
B:-------------------------------------------------------------------
G:---16--16----14----12----14----11---12---9---11---9----7---9---7---
D:-------------------------------------------------------------------
A:-------------------------------------------------------------------
E:-------------------------------------------------------------------

E:-----------------------------------------------------------------slide----
B:--------------------------------------------------------------/ \/ \
G:--6 / 7 / 6---4 / 6 / 4---2----4---2---4----6----4------------------------
D:--------------------------------------------------------------------------
A:--------------------------------------------------------------------------
E:--------------------------------------------------------------------------

E:------10--------------10---------------10---------------------------------
B:---------------10--------------10-------------8---10---12---10-----8---10-
G:--------------------------------------------------------------------------
D:--------------------------------------------------------------------------
A:--------------------------------------------------------------------------
E:--------------------------------------------------------------------------

E:----------(hold this note for a while)----
B:--12---10-----12-------15-----------(17)--
G:------------------------------------------
D:------------------------------------------
A:------------------------------------------
E:------------------------------------------

then go back to the main riff but palm mute it

***Version 3*** by Chino Rdrgz

I also think that the verses to "Take Me Away" sounds good if you play Dminor
starting on the 3rd fret, then move up to the 5th fret, then move up to the
7th fret for the "Crazy" part. so, the chord shapings look like this.

E|=3==5==7=|
B|=5==7==9=|
G|=4==6==8=|
D|=========|
A|=========|
E|=========|

Take Me Away - by Ween

Take me away to some other land
I gotta get away from that girl before I go crazy
She took my love away
She took it to another man
Now I gotta get away from that girl
Before I go craaaazy
(Repeat twice)

Gotta get away
Crazy
She took my love away
She took it to another man
Now I gotta get away

(Repeat first verse)

***Bass Tab*** by Geoffrey Dickens

s s s s s s s s s s s s s s s s s s s s s s
----|--------------------------------------|------------------------------------
4:--|--------------------------------------|------------------------------------
4:--|--------------------------------------|------------------------------------
----|--6--6--6--6--6--6--6--6--6--6--6--6--|--6--6--6--6--6--6--6--6--6--6------
Intro

e q q q q q q q e e 4x q q q q q q q e e
---||---------------|------------------||--||---------------|-------------------
---||*--------------|--------5--7--9--*||--||*--------------|--------5--7--9----
---||*--------------|--5--7-----------*||--||*--------------|--5--7-------------
\3\||---0--3--5--7--|------------------||--||---0--3--5--7--|-------------------
Verse

4x q q q q q q e e q 2x q q q q q q q e e
-||--||---------------|------------------||--------------|-----------------|----
*||--||*--------------|-----------------*||--------------|--------5--7--9--|----
*||--||*--------------|-----------------*||--------------|--5--7-----------|----
-||--||---0--3--5--7--|--0--3--2--2--1---||--0--3--5--7--|-----------------|----

s s s s s s s s s s s s s s s s s s s s s s e q
------------------------------------|---------------------------------||--------
------------------------------------|---------------------------------||*-------
------------------------------------|---------------------------------||*-------
6--6--6--6--6--6--6--6--6--6--6--6--|--6--6--6--6--6--6--6--6--6--6\3\||---0----
Crazy! Verse

q q q q q q e e 4x q q q q q q e e q 2x q q
---------|------------------||--||---------------|------------------||----------
---------|--------5--7--9--*||--||*--------------|-----------------*||----------
---------|--5--7-----------*||--||*--------------|-----------------*||----------
3--5--7--|------------------||--||---0--3--5--7--|--0--3--2--2--1---||--0--3----

q q q q q e e s s s s s s s s s s s s s s s s
------|-----------------|--------------------------------------|----------------
------|--------5--7--9--|--------------------------------------|----------------
------|--5--7-----------|--------------------------------------|----------------
5--7--|-----------------|--6--6--6--6--6--6--6--6--6--6--6--6--|--6--6--6--6----
Crazy!

s s s s s s e q q q q q q q e e 4x q q q q
-------------------||---------------|------------------||--||-------------------
-------------------||*--------------|--------5--7--9--*||--||*------------------
-------------------||*--------------|--5--7-----------*||--||*------------------
6--6--6--6--6--6\3\||---0--3--5--7--|------------------||--||---0--3--5--7------
Verse

q q e e q 2x q q q q q q q e e s s s s s s s
|------------------||--------------|-----------------|--------------------------
|-----------------*||--------------|--------5--7--9--|--------------------------
|-----------------*||--------------|--5--7-----------|--------------------------
|--0--3--2--2--1---||--0--3--5--7--|-----------------|--6--6--6--6--6--6--6-----
Crazy!

s s s s s s s s s s s s s s s e q q q q q q q
---------------|---------------------------------|--------------|---------------
---------------|---------------------------------|--------------|---------------
---------------|---------------------------------|-----7--5--4--|---------------
6--6--6--6--6--|--6--6--6--6--6--6--6--6--6--6\3\|--0-----------|--7--5--3------
Solo

q q q q q q q q q q q q q q q q q q q q q
---|--------------|--------------|--------------|--------------|----------------
---|--------------|--------------|--------------|--8--7--5-----|----------------
---|--------------|--5-----------|--7-----------|-----------7--|--7--5--4-------
2--|--0--3--5--7--|-----7--5--3--|-----7--5--3--|--------------|-----------7----

q q q q q q q q q q q q q q q q q q q e e
|--------------|--------------|--------------|--------------|-------------------
|--------------|--------------|--------------|--------------|-------------------
|--------------|--------------|--------------|--------------|--7--5-----5--6----
|--5--3--2--1--|--0--3--5--7--|--0--5--3--2--|--0--3--5--7--|--------7----------

q q q q q q q q s s s s s s s s s s s s w
|--------------|--------------|--------------------------------------|----|-----
|--------------|--------------|--------------------------------------|----|-----
|--7--5--4-----|--------------|--------------------------------------|----|-----
|-----------7--|--5--3--2--1--|--6--6--6--6--6--6--6--6--6--6--6--6--|--6\|-----

q q q q q q q q q q q q q q q q q q q q q
------------|--------------|--------------|--------------|--------------|-------
------------|--------------|--------------|--------------|--------------|-------
------------|--------------|--7--7--7--7--|--9--9--9--9--|--------------|-------
0--0--0--0--|--2--2--2--2--|--------------|--------------|--0--0--0--0--|--2----
Quiet bass bit

q q q q q q q q q q q q q q q q q q q q q
---------|--------------|--------------|--------------|--------------|----------
---------|--------------|--------------|--------------|--------------|----------
---------|--7-----------|--------------|--------------|--------------|--7--6----
2--2--2--|-----7--6--5--|--5--3--5--3--|--0--3--5--6--|--7--6--5--3--|----------

q q q q q q q q q q q q q q q q q q q q q
------|--------------|--------------|--------------|--------------|-------------
------|--7--5--8--7--|--------------|--7--5--------|--------------|-------------
5-----|--------------|--7--5--------|--------7--5--|--7--5--------|-------------
---7--|--------------|--------7--6--|--------------|--------7--5--|--0--3--5----

q e e q q q 4x q q q q q q q q s s s s s s
---||-------------------||--------------|----------------|----------------------
---||*-----------------*||--------------|----------------|----------------------
---||*--7--7--5-----5--*||--7--5--------|----------------|----------------------
7--||------------7------||--------7--6--|--5--3---/6--5--|/6--6--6--6--6--6-----

s s s s s s w q q q q q q q e e 4x q
------------------|-------|--||---------------|------------------||--||---------
------------------|-------|--||*--------------|--------5--7--9--*||--||*--------
------------------|-------|--||*--------------|--5--7-----------*||--||*--------
6--6--6--6--6--6--|--6/18\|--||---0--3--5--7--|------------------||--||---0-----
Verse

q q q q q e e q 2x q q q q q q q e e s s s
---------|------------------||--------------|-----------------||----------------
---------|-----------------*||--------------|--------5--7--9--||*---------------
---------|-----------------*||--------------|--5--7-----------||*---------------
3--5--7--|--0--3--2--2--1---||--0--3--5--7--|-----------------||---6--6--6------
Crazy!

s s s s s s s s s 2x s s s s s s s s s s s
----------------------------||--------------------------------------------------
---------------------------*||--------------------------------------------------
---------------------------*||--------------------------------------------------
6--6--6--6--6--6--6--6--6---||/18--18--18--18--18--18--18--18--18--18--18-------

s s s s s s s s s s s s s
----|--------------------------------------------------||-----------------------
----|--------------------------------------------------||-----------------------
----|--------------------------------------------------||-----------------------
18--|--18--18--18--18--18--18--18--18--18--18--18--18--||-----------------------

**Tabbed by Edder and version 2 by Cleen Ween (Jason Novalis)
Awesome Sound - Ween Guitar tabs (www.vaxxine.com/mtbhl/ween.htm)